AC/DC - Whole Lotta Rosie Chord

ADSENSE Link Ads 200 x 90
ADSENSE 336 x 280

[Intro]

E|-----------------------------------------|
B|-----------------------------------------|
G|-----------------------------------------|
D|-----------------------------------------|
A|-0-3-0-5-0-3-----------------------------| x12
E|-----------------------------------------|


[Verse]

E|-----------------------------------------|
B|-----------------------------------------|
G|----------------2--2--2------------------|
D|----------------2--2--2------------------|
A|-0-3-0-5-0-3----0--0--0------------------|
E|-----------------------------------------|

Verse is that.
Then the chords


[Pre-Chorus]

F F F D D D


[Chorus]

A G A G A G

E|-----------------|
B|-----------------|
G|-----------------|
D|-----------------|
A|-----------------|
E|-3-2-3-2-3-4-5---|

Then repeat

Sumber http://malaykord.blogspot.com
ADSENSE 336 x 280 dan ADSENSE Link Ads 200 x 90

0 Response to "AC/DC - Whole Lotta Rosie Chord"

Post a Comment