loading...

Foo Fighters -Times Like These Chord

ADSENSE Link Ads 200 x 90
ADSENSE 336 x 280

[Intro]

(plain D while hammering the A (2nd fret) on the G sting)

e|---2-2-2---2-----2-----2-----2-2---|
B|---3-3-3---3-----3-----3-----3-3---|
G|---0-2-2-0-2---0-2---0-2---0-2-2---| x3
D|---0-0-0-0-0---0-0---0-0---0-0-0---|
A|-----------------------------------|
E|-----------------------------------|


[Verse]

D Am Am7
I, I’m a one way motorway
C Em Em7 D
I’m the one that drives away, follows you back home

e|---2-2-2---2-----2-----2-----2-2---|
B|---3-3-3---3-----3-----3-----3-3---|
G|---0-2-2-0-2---0-2---0-2---0-2-2---|
D|---0-0-0-0-0---0-0---0-0---0-0-0---|
A|-----------------------------------|
E|-----------------------------------|

D Am Am7
I, I’m a streetlight shining
C Em Em7 D
I’m a white light blinding bright, burning off and on

e|---2-2-2---2-----2-----2-----2-2---|
B|---3-3-3---3-----3-----3-----3-3---|
G|---0-2-2-0-2---0-2---0-2---0-2-2---|
D|---0-0-0-0-0---0-0---0-0---0-0-0---|
A|-----------------------------------|
E|-----------------------------------|


[Chorus]

C Em Em7 D
It’s times like these you learn to live again
C Em Em7 D
It’s times like these you give and give again
C Em Em7 D
It’s times like these you learn to love again
C Em Em7 D
It’s times like these time and time again

e|---2-2-2---2-----2-----2-----2-2---|
B|---3-3-3---3-----3-----3-----3-3---|
G|---0-2-2-0-2---0-2---0-2---0-2-2---|
D|---0-0-0-0-0---0-0---0-0---0-0-0---|
A|-----------------------------------|
E|-----------------------------------|


[Verse]

D Am Am7
I, I’m a new day rising
C Em Em7 D
I’m a brand new sky that hangs stars upon tonight

e|---2-2-2---2-----2-----2-----2-2---|
B|---3-3-3---3-----3-----3-----3-3---|
G|---0-2-2-0-2---0-2---0-2---0-2-2---|
D|---0-0-0-0-0---0-0---0-0---0-0-0---|
A|-----------------------------------|
E|-----------------------------------|

D Am Am7
I, I’m a little divided
C Em Em7 D
Do I stay or run away and leave it all behind

e|---2-2-2---2-----2-----2-----2-2---|
B|---3-3-3---3-----3-----3-----3-3---|
G|---0-2-2-0-2---0-2---0-2---0-2-2---|
D|---0-0-0-0-0---0-0---0-0---0-0-0---|
A|-----------------------------------|
E|-----------------------------------|


[Chorus]

C Em Em7 D
It’s times like these you learn to live again
C Em Em7 D
It’s times like these you give and give again
C Em Em7 D
It’s times like these you learn to love again
C Em Em7
It’s times like these time and time again


[Interlude]

D C Em7 D C Em7 D

e|---2-2-2---2-----2-----2-----2-2---|
B|---3-3-3---3-----3-----3-----3-3---|
G|---0-2-2-0-2---0-2---0-2---0-2-2---|
D|---0-0-0-0-0---0-0---0-0---0-0-0---|
A|-----------------------------------|
E|-----------------------------------|


[lead part]

(mess around with it)

e|------------------------------------------|
B|------------------------------------------|
G|----------12--11----------12--11----------|
D|--12--10----------12--10------------------|
A|----------------------------------12--10--|
E|------------------------------------------|


[Chorus]

C Em Em7 D
It’s times like these you learn to live again
C Em Em7 D
It’s times like these you give and give again
C Em Em7 D
It’s times like these you learn to love again
C Em Em7
It’s times like these time and time again

C Em Em7 D
It’s times like these you learn to live again
C Em Em7 D
It’s times like these you give and give again
C Em Em7 D
It’s times like these you learn to love again
C Em Em7
It’s times like these time and time again


[Outro]

C Em7 D C Em7 D

C Em7 D C Em7 D C



Sumber http://malaykord.blogspot.com
ADSENSE 336 x 280 dan ADSENSE Link Ads 200 x 90

0 Response to "Foo Fighters -Times Like These Chord"

Post a Comment

Recipes Easy