Jimmy Eat World - Always Be Chord

ADSENSE Link Ads 200 x 90
ADSENSE 336 x 280

Chords:

C C/A F G Gadd11

E||--0----0--------------------|
B||--1----1----1----3-----1----|
G||--0----0----2----0-----0----|
D||--2----2----3----0-----0----|
A||--3----0----3----2-----2----|
E||------------1----3-----3----|


Intro:


E||--------------------------|--------------------------|
B||--------------------------|--------------------------|
G||--------0-----------0-----|--------0-----------0-----|
D||-----2-----2-----2-----2--|-----2-----2-----2-----2--|
A||--3-----------3-----------|--3-----------3-----------|
E||--------------------------|--------------------------|


E||--------------------------|--------------------------|
B||--------------------------|--------------------------|
G||--------0-----------0-----|--------0-----------0-----|
D||-----2-----2-----2-----2--|-----2-----2-----2-----2--|
A||--0-----------0-----------|--0-----------0-----------|
E||--------------------------|--------------------------|


E||--------------------------|--------------------------|
B||--------------------------|--------------------------|
G||--------------------------|--------------------------|
D||--------0-----------0-----|--------0-----------0-----|
A||-----3-----3-----3-----3--|-----3-----3-----3-----3--|
E||--1-----------1-----------|--1-----------1-----------| x2


Verse 1:

C C/A
Could've been a night like any other
F
One of us has to drive

One of us gets to think
C C/A
I'll force a laugh to break the silence

It's gonna get harder still
F
Before it gets easy
G C/A F
You can't keep safe what wants to break


Chorus:


C C/A
I'm alone in this
F
I'm all as I've always been
Gadd11
Right behind what's happening
C C/A
She's all lost in this
F
She's all like she'll always be
Gadd11
A little far for me to reach


Verse 2:


C C/A
I was just a boy like every other
F
I thought I was something fierce

I thought I was ten times smarter
C C/A
Love would be something that I just know

(Something I just know)
F
How you gonna know the feeling till you've lost it
G C/A F
I've been losing plenty since


(Repeat Chorus)


Bridge:


G C/A F
Maybe something else I'm missing
G C/A F
Something good and you're the reason
G C/A F
It's a dream but there's a real world waiting


(Repeat Chorus x2)


Sumber http://malaykord.blogspot.com
ADSENSE 336 x 280 dan ADSENSE Link Ads 200 x 90

0 Response to "Jimmy Eat World - Always Be Chord"

Post a Comment