loading...

Jimmy Eat World - Sweetness Chord

ADSENSE Link Ads 200 x 90
ADSENSE 336 x 280

GUITAR1
CHORDS DROPPED D- TUNING
D/G Fsus2 Bb C D E F G D*
E|--0----8----x----x---x---x---x---x---x----||
B|--5----8----x----x---x---x---x---x---x----||
G|--2---10----x----x---x---9---x---x---7----||
D|--0---10----8---10---0---9---3---5---7----||
A|--0---(8)---8---10---0---7---3---5---5----||
D|--0---(8)---8---10---0---x---3---5---x----||


GUITAR2
CHORDS STANDARD TUNING
D/G Fsus2 Bb C F G D D*
E|--x----8-----x----x---x---x---x---x--------||
B|--x----8-----x----x---x---x---x---x--------||
G|-(9)--10-----x----x---x---x---x---7--------||
D|--9---10-----8---10---3---5---2---7--------||
A|--7---(8)----8---10---3---5---2---5--------||
E|--0---(8)----6----8---1---3---0---x--------||


[Verse 1]
D/G
If you listening, whohohohohoho
Fsus2 D/G
Sing it back, whohohohoho
Fsus2 D/G
String from your tether unwinds, whoho, whoho
Fsus2 D/G
Up and outward but only to bind, whoho, whoho


[Chorus 1]
Bb C D/G (guitar1 plays: D E)
I was spinning free, whohohohohoho
Bb C F
with a little sweet and simple numbing me


[Verse 2]
Fsus2 D/G
Are you listening, whohohohohoho
Fsus2 D/G
Sing it back, whohohohoho
Fsus2 D/G
So tell me what do I need, whoho, whoho
Fsus2 D/G
When the words lose their meaning, whoho, whoho


[Chorus 2]
Bb C D/G (guitar1 plays: D E)
Is was spinning free, whohohohohoho
Bb C F F(10x PM)
with a little sweet and simple numbing me
Bb C D/G (guitar1 plays: D E)
Stumble until your crawl, whohohohohoho
Bb C F
Sinking into sweet uncertainty


[Bridge]
(play 2x, 2nd time with 'Ahahahaha')
G
Oeh hoe hoe hoeoe
Bb F
Oeh hoe hoe hoeoe
G
Oeh hoe hoe hoeoe
Bb F
Oeh hoe hoe hoeoe


[Verse 3]
(background: 'are you listening')
Fsus2
Are you listening, are you listening
F G D
If you listening, whohohohohoho
F G D
Sing it back, whohohohoho
F G D
I'm still running away, whoho, whoho
F G D D*(PM 10x)
I won't play your hide and seek game, whoho, whoho


[Chorus 3]
Bb C D/G (guitar1 plays: D E)
I was spinning free, whohohohohoho
Bb C F
with a little sweet and simple numbing me
Bb C guitar1 plays: D E
What a dizzy dance, whohohohohoho
Bb C F
this sweetness will not be concerned with me


[Outro]
(background: 'ohohohoho')
Bb C F
Yeah, this sweetness will not be concerned with me
Bb C F
Yeah, this sweetness will not be concerned with me



Sumber http://malaykord.blogspot.com
ADSENSE 336 x 280 dan ADSENSE Link Ads 200 x 90

0 Response to "Jimmy Eat World - Sweetness Chord"

Post a Comment

Recipes Easy