loading...

Soundgarden - Fell On Black Days Chord

ADSENSE Link Ads 200 x 90
ADSENSE 336 x 280

[Intro]

E5 B5 Cmaj7 (x4)


[Verse]

E5 B5 Cmaj7 E5 B5 Cmaj7
What-so-ever I’ve feared has,_____ come to light.
E5 B5 Cmaj7 E5 B5 Cmaj7
And what-so-ever I’ve fought off,_____ became my life.
E5 B5 Cmaj7 E5 B5 Cmaj7
Just when ev-’ry-day,_____ seemed to greet me with a
E5 B5 Cmaj7 E5 B5 Cmaj7
smile. Sun spots have fad-ed, now I’m do-ing time.
E5 B5 Cmaj7 E5/B B5 E5/B B5 A D Cmaj7
Now I’m do-ing time.


[Chorus A]

E5 B5 Cmaj7 E5 B5 Cmaj7
‘Cause I fell on,___________ black days.________
E5 B5 Cmaj7 E5 B5 Cmaj7
I fell on,___________ black days.________

E5 B5 Cmaj7 E5 B5 Cmaj7
Whom-so-ever I’ve cured, I’ve____ sickened now.
E5 B5 Cmaj7 E5 B5 Cmaj7
And whom-so-ever I’ve Cradled,____ I’ve put you down.
E5 B5 Cmaj7 E5 B5 Cmaj7
I’m a searchlight soul they say,____ but I can’t see it in the
E5 B5 Cmaj7 E5 B5 Cmaj7
Night. I’m only faking, when I get it right.
E5 B5 Cmaj7 E5/B B5 E5/B B5 A D Cmaj7
When I get it right.


[Chorus B]

E5 B5 Cmaj7 E5 B5 Cmaj7
‘Cause I fell on,___________ black days.________
E5 B5 Cmaj7 E5 B5 Cmaj7
I fell on,___________ black days.________
D5 E5 B5 Cmaj7 E5 B5 Cmaj7
How would I know,____ that this could be my fate?________
D5 E5 B5 Cmaj7 E5 B5 Cmaj7
How would I know,____ that this could be my fate?________


[Bridge]

B E G# A
e||------------------------|---------------------------------|----------------------||
B||o-----------------------|--------12h13p12-10--12--13---15-|-(15)-13-12-10---10\-o||
G||--4--4-4--9--/-13--/-14-|-(14)----------------------------|----------------------||
D||--x--x-x--x--/--x--/--x-|--(0)-0---------------------0----|---------------0------||
A||o-2--2-2--7--/-11--/-12-|-(12)----------------------------|---------------------o||
E||------------------------|---------------------------------|----------------------||

Ooh_______________________________________________
e|------------------------|---------------------------------|--------------------------------|
B|------------------------|--------12h13p12-10--12--13---15-|-(15)---12h13p12--10-12-13---12-|
G|--4--4-4--9--/-13--/-14-|-(14)----------------------------|--------------------------------|
D|--x--x-x--x--/--x--/--x-|--(0)-0---------------------0----|------0--------------------0----|
A|--2--2-2--7--/-11--/-12-|-(12)----------------------------|--------------------------------|
E|------------------------|---------------------------------|--------------------------------|

Ooh_____________________________________________________
e|---------------------------------|-------------------||
B|--(12)---12h13p12--10-12-13--/15-|-(15)-13-12-10-8-7-||
G|---------------------------------|-------------------||
D|-------0--------------------0----|-------------------||
A|---------------------------------|-------------------||
E|---------------------------------|-------------------||


[Verse]

E5 B5 Cmaj7 E B5 Cmaj7
To what you wanted to see good,____ has made you blind.
E5 B5 Cmaj7 E5 B5 Cmaj7
And what you wanted to be yours,____ has made it mine.
E5 B5 Cmaj7 E5 B5 Cmaj7
So don’t you lock up some-thing____ that you wanted to see
E5 B5 Cmaj7 E5 B5 Cmaj7
fly. Hands are for shaking,____ no not ty-ing.
E5/B B5 E5/B B5 A D (Cmaj7)
No not ty_______ ing.

Cmaj7 E5/B B5 E5/B A D
I sure don’t mind a change,________
Cmaj7 E5/B B5 E5/B A D
I sure don’t mind a change.________
Cmaj7 E5/B B5 E5/B A D
Yeah, I sure don’t mind, sure don’t mind a change.________
Cmaj7
I sure don’t mind a change._______


[Chorus B]
(Repeat)

D5 E5 B5 Cmaj7 E5 B5 Cmaj7
How would I know,____ that this could be my fate?________
D5 E5 B5 Cmaj7 E5 B5 Cmaj7
How would I know,____ that this could be my fate?________
(Cmaj7)
I sure don’t mind a change.________



Sumber http://malaykord.blogspot.com
ADSENSE 336 x 280 dan ADSENSE Link Ads 200 x 90

0 Response to "Soundgarden - Fell On Black Days Chord"

Post a Comment